Starblood.org: Cranes Resource












Your Location

home  / 
Are You Gone?

Also available on:
Loved
Click below for:
Tabs

Please order 'Til the Stars Shine at Cranes Fan Forum for these exclusive official lyrics.

Tabs are also available at Cranes Fan Forum Guitarchive.



Bass Tab
Transcription : Scott Sisson

The song is tuned down 1/2 step to Eb.

g-|-2-------------------------------|---------------------------------|-
d-|---------------------------------|-3-------------------------------|-
a-|---------------------------------|---------------------------------|-
e-|---------------------------------|---------------------------------|-

Play throughout, with
g-|-2-------------------------------|---------------------------------|-
d-|---------------------------------|-3---------------1---------------|-
a-|---------------------------------|---------------------------------|-
e-|---------------------------------|---------------------------------|-

Occasionally at the end.

back to top



back

© 2001 Starblood.org.  Disclaimer.  Site Credits.  Designed by Jessie.