Starblood.org: Cranes Resource












Your Location

home  / 
Nothing in the Middle, Nothing at the End

Also available on:
Self-Non-Self
Make Ready for Revelation...
Click below for:
Lyrics
Tabs



Lyrics
(interpretation) Too and fro
Forever backwards I go
Too and fro
I see/I'm seeing
Which way you want
To go home
Which way
You want to go home
Never forward
Never backward
Just too and fro
Too and fro

Now why d'ya feel
And all lights go on
But in your eyes
And all lights go on
Now lights go on
Now lights go on
Now lights go on

You don't take it
You're like a child . . .

back to top



Bass Tab
Transcription : Scott Sisson

The song is tuned down 1/2 step to Eb.
Then tune the lower e (Eb) down a tone to d (Db).

first riff
With optional octave doubling for added resonance
g-|----------------------------------|-
d-|(0)-------------(3)---------------|-
a-|----------------------------------|-
D-|-0---------------3----------------|-

Linking to second riff with :
g-|----------------------------------|----------------------------------|-
d-|(0)-------------------------------|----------------------------------|-
a-|-----------------0----------------|--1---------------3---------------|-
D-|-0--------------------------------|----------------------------------|-

Then on to
second riff :
g-|----------------------------------|-
d-|----------------------------------|-
a-|-5---------------5----------------|-
D-|---7-0-------------7-0------------|-

Alternating between the first and second riffs where appropriate.

back to top



back

© 2001 Starblood.org.  Disclaimer.  Site Credits.  Designed by Jessie.