Starblood.org: Cranes Resource












Your Location

home  / 
Paris and Rome

Also available on:
Loved Sampler
Loved
EP Collection, Vols 1 & 2
Shining Road Single
Lilies
US Dedicated Sampler
Click below for:
Tabs

Please order 'Til the Stars Shine at Cranes Fan Forum for these exclusive official lyrics.



Bass Tab
Transcription : Scott Sisson

The song is tuned down 1/2 step to Eb.

riff one
g-|---------------------------------|---------------------------------|-
d-|---------------------------------|---------------------------------|-
a-|---------------------------------|-----------------4---------------|-
e-|-5--------------4----------------|-5-------------------------------|-

riff two
g-|---------------------------------|---------------------------------|-
d-|---------------------------------|---------------------------------|-
a-|---------------------------------|-----------------4-4-4-4-4-------|-
e-|-5-5-5-5-5-5-5-5-4-4-4-4-4-4-4-4-|-5-5-5-5-5-5-5-5-----------0-0-0-|-

join in with riff two on second verse
alternate where necessary

back to top



back

© 2001 Starblood.org.  Disclaimer.  Site Credits.  Designed by Jessie.