Starblood.org: Cranes Resource












Your Location

home  / 
Rainbows

Also available on:
Forever
Click below for:
Tabs

Please order 'Til the Stars Shine at Cranes Fan Forum for these exclusive official lyrics.

Tabs for this song are available at Cranes Fan Forum Guitarchive.



Bass Tab
Transcription : Scott Sisson

The song is tuned down 1/2 step to Eb.
The lower string is also tuned down a further 4 semitones to low Cb (optional)

play throughout
g-|---------------------------------|---------------------------------|-
d-|---------------------------------|---------------------------------|-
a-|-3---3---3---3-------------------|-3---3---3---3-------------------|-
e-|-----------------5---5---5---5---|-----------------5---5---5---5---|-

until at the end - ("it's all i want now ...")
g-|---------------------------------|---------------------------------|-
d-|---------------------------------|---------------------------------|-
a-|---------------------------------|---------------------------------|-
e-|-0---0---0---0---5---5---5---5---|-0---0---0---0---5---5---5---5---|-

without the low Cb tuning play
g-|---------------------------------|---------------------------------|-
d-|---------------------------------|---------------------------------|-
a-|-3---3---3---3-------------------|-3---3---3---3-------------------|-
e-|-----------------1---1---1---1---|-----------------1---1---1---1---|-

riff one
back to top



back

© 2001 Starblood.org.  Disclaimer.  Site Credits.  Designed by Jessie.