Starblood.org: Cranes Resource












Your Location

home  / 
Trumpet Song

Also available on:
Forever Limited 12" & German Limited CD Release
Can't Get Free Single
Click below for:
Tabs

Instrumental track.



Bass Tab
Transcription : Scott Sisson

The song is tuned down 1/2 step to Eb.

fade in intro
g-|------------------------|-
d-|------------------------|-
a-|---6-----------6--------|-
e-|6----68--9--6----68--9--|-

first riff(*)
g-|--------------------6--(6)|-
d-|--8-----6-----6-----------|-
a-|------4-------------------|-
e-|6-----------7-----6-------|-

main riff
g-|------------------------|-
d-|---7--------------------|-
a-|------------6--9--8--7--|-
e-|6-----9--8--------------|-

Play the riffs in order, finishing by playing the first riff to a fade out.
During the fade out the extra (6) is played.
Also once on (*) [in the fade out] drag the left hand down the neck for the whole note.
The whole song is played with a swing (i.e. each note is really triplets)
- listen to the cd for the exact rhythm.
This is simpler to play without the usual Eb tuning.

back to top



back

© 2001 Starblood.org.  Disclaimer.  Site Credits.  Designed by Jessie.